The Wars end by Rancid

tabed by Thunderboi 77

intro
E------------------------------------------------------ pick these then after
B------------------------------------------------------ awhile play the full
G------------7------5------4--------------------------- power chords
D-----5----7------5------4--------7--------------------
A---5----5------3------2--------7----------------------
E-3---------------------------5------------------------ x4

verse
E------------------------------------------------------
B------------------------------------------------------
G----------77777-55-44---------------------------------
D-55555555-77777-55-44-7-555555------------------------
A-55555555-55555-33-22-7-555555------------------------
E-33333333-55555-------5-333333------------------------x2

pre chorus

E---------------------------------------------------------------------------
B---------------------------------------------------------------------------
G-55555555----------7777777777----55555555----------7777777777--------------
D-55555555-55555555-7777777777-55-55555555-55555555-7777777777--------------
A-33333333-55555555-5555555555-55-33333333-55555555-5555555555--------------
E----------33333333------------33----------33333333-------------------------

Chorus
E----------------------------------------------
B----------------------------------------------
G-------77777-55-44----------------------------
D-55555-77777-55-44-55-------------------------
A-55555-55555-33-22-55-------------------------
E-33333-------------33-------------------------x 3




Ваше мнение



Капча