Song: The Brothels
Band: Rancid
Album: Give 'Em the Boot I
tabbed by: Alec([email protected])

Intro/Chorus:
G:---------------------------------------------------------
D:---------------------------------------------------------
A:-------------------------------------7-5-----------------
E:--4h5-5-5-4h5-5-5-4h5-5-5--------------------------------

Verse:
G:----------------------------------------------------------
D:--------------------------3--2-0--------------------------
A:--3-3-2h3-3-3-5--5---------3----------------------2-0-2-3-
E:-----------------------------------1-1-0h1-1-3--3---------

Pre-Chorus (We got everything you need):
G:----------------------------------------------------------
D:----------------------------------------------------------
A:------------------0/20------------------------------------
E:--0-------------------------------------------------------

Bridge (Na Na):
G:----------------------------------------------------------
D:----------------------------------4-4---------------------
A:-------------------------7-7-5-5------5-5-----------------
E:--5-5-555/7-7-777-----------------------------------------

Bridge Cont.:
G:----------------------------------------------------------
D:----------------------------------------------------------
A:--7--5-------9--7-----------------------------------------
E:---------7-5-------10-9-7---------------------------------

Bridge Cont.:
G:----------------------------------------------------------
D:----------------------------------------------------------
A:--------5-7-7--5-9-7-5-5----------------------------------
E:--5--7-----------------------7----------------------------




Ваше мнение



Капча