Rancid
The Ballad of Jimmy and Johnny
Verse:(repeat first part go to next and repeat)
G--------------------------------*-------------------------------------
D--------------------------------*-------------------------------------
A--3-3-3-3----------1-0-1-2--3-*-3-3-3-3-----------1-1-1-1----3-3-3-3-
E----------1-1-1-1---------------*------------1-1-1-1-------------------
Chorus:
G-------------------------------------------------------------------
D--------------2----------------------------------------------------
A-----------3-----5-4--1-1-1-0-1-3-------------3-3-3-3---1-1-1-1----
E--1-1-1-1----------------------------1-1-1-1-----------------------
Bridge:
G----------------------------------
D----------------------------------
A----3-3-3-3-----------1-1-1-2-3---
E-------------1-1-1-1--------------
Tabbed by Adam Carr (Bassist of suLPHer)




Ваше мнение



Капча