Band-Rancid *=play 8 times ^=play 4 times
Song-Tenderloin b=full bend
Album-Let's Go
Intro
E-3----6-6--3-------3---6-6--3-----------------------
B-3----5-5--3---5---3---5-5--3-----------------------
G-5b7-------5b7-5-5-5b7------0----Play a few times---
D----------------------------------------------------
A----------------------------------------------------
E----------------------------------------------------
Verse
E----------------------------------------------------
B----------------------------------------------------
G-5*----5*----7^-------------------------------------
D-5--5*-5--5^-7---x2---------------------------------
A-3--5--3--5--5--------------------------------------
E----3-----3-----------------------------------------
Chorus
E----------------------------------------------------
B----------------------------------------------------
G----7-----5-----7^----------------------------------
D-5--7--5--5--5^-7--5*-------------------------------
A-5--5--5--3--5--5--5--------------------------------
E-3-----3-----3-----3--------------------------------
I don't have the order down, but just listen to the song for timing.




Ваше мнение



Капча