Song: Stop
Band: Rancid
Album: Bloodclot
tabbed by: Alec([email protected])

Intro:
G:--------------------
D:--------------------
A:--------------------
E:--3-------------3--

Chorus:
G:----------------------------------------------
D:----------------------------------------------
A:--3-2-0------2-3-4-5-3-2-0-----2-3------------
E:--------3-0----------------3-0----------------

Verse:
G:----------------------------------------------
D:----------------------------------------------
A:----0-2-0-3-2-0------3-5-3-2-0----------------
E:--3-------------3-0--------------3-0----------

Bridge:
G:----------------------------------------------
D:----------------------------------------------
A:--3-3-33-3--2-2-22-2--0-0-00-0---00-11-22-----
E:------------------------------------------3---




Ваше мнение



Капча