Song Start Now
Band Rancid
Tabber Eaiddhi
E-mail [email protected]
Tuning Half-step down(Eb,Ab,Db,Gb,Bb,Eb)
|--------------------------------------------------|
|--------------------------------------------------|
|--------------------------------------------------|
|--------------------------------11-11-12-12-12-|
|-9-9-9-9-9-9-9-9-7-7-7-12-12-12-------------------|
|--------------------------------------------------|
pm. . . . . . . . . . . . . . . . . . . .
|--------------------------------------------------------|
|--------------------------------------------------------|
|--------------------------------------------------------|
|--------------------------------11-11-12-12-12---12-12--|
|-9-9-9-9-9-9-9-9-7-7-7-12-12-12----------------12-------|
|--------------------------------------------------------|
. . . . . . . . . . . . . . . . . . . . . .
|-------------------------------------------------------------------------|
|-------------------------------------------------------------------------|
|-------------------------------------------------------------------------|
|-11-11-11-11-11-11-11-11-12-12-12-12-12---12-12-11-11-11-11-11-11-11-11--|
|----------------------------------------12-------------------------------|
|-------------------------------------------------------------------------|
. . . . . . . . . . . . . . . . . . . . . . . .
|--------------------------------------------------------------------------|
|--------------------------------------------------------------------------|
|-7-777777----------7-777777----------7-777777-----------------------------|
|-7-777777-7-777777-7-777777-7-777777-7-777777-7-777777-9-999999-7-777777--|
|-5-555555-7-777777-5-555555-7-777777-5-555555-7-777777-9-999999-7-777777--|
|-------- 5-555555----------5-555555----------5-555555-7-777777-5-555555--|
...... ...... ...... ...... ...... ...... ...... ......
|--------------|
|--------------|
|-7--11-----9--|
|-7--11--9--9--|
|-5---9--9--7--|
|--------7-----|
|-5-55-55---------7-77-77----------|
|-5-55-55-9-99-99-7-77-77-7-77-77--|
|-6-66-66-9-99-99-7-77-77-7-77-77--|
|-7-77-77-9-99-99-9-99-99-7-77-77--| x2
|-7-77-77-7-77-77-9-99-99-5-55-55--|
|-5-55-55---------7-77-77----------|
|--------------------------------------------------------------------------|
|--------------------------------------------------------------------------|
|-7-777777----------7-777777----------7-777777-----------------------------|
|-7-777777-7-777777-7-777777-7-777777-7-777777-7-777777-9-999999-7-777777--|
|-5-555555-7-777777-5-555555-7-777777-5-555555-7-777777-9-999999-7-777777--|
|-------- 5-555555----------5-555555----------5-555555-7-777777-5-555555--|
...... ...... ...... ...... ...... ...... ...... ......
(repeat)
|--------------|
|--------------|
|-7--11-----9--|
|-7--11--9--9--|
|-5---9--9--7--|
|--------7-----|
|-5-55-55---------7-77-77----------|
|-5-55-55-9-99-99-7-77-77-7-77-77--|
|-6-66-66-9-99-99-7-77-77-7-77-77--|
|-7-77-77-9-99-99-9-99-99-7-77-77--| x4
|-7-77-77-7-77-77-9-99-99-5-55-55--|
|-5-55-55---------7-77-77----------|
|----------------0--00--0---|
|-2-22-3-32--32--0--00--0---|
|-2-22-2-22--22--1--11--1---|
|-2-22-2-22--22--2--22--2---| x4
|-0-00-0-00--00--2--22--2---|
|----------------0--00--0---|
Guitar 1st line
|-0--000-000-00-|
|-0--000-000-00-|
|-1--111-111-11-|
|-2--222-222-22-| x4
|-2--222-222-22-|
|-0--000-000-00-|
Guitar 2nd line (solo)
|------------------------------------|
|-9-10-12--12-9-10--10----9----------|
|----------------------11---11-1010--|
|------------------------------------|
|------------------------------------|
|------------------------------------|
|----------------------------------------|
|-9-10-12--12-9-10--10-9--15b1717171717--|
|----------------------------------------|
|----------------------------------------|
|----------------------------------------|
|----------------------------------------|
Guitar 1st line
|-5-55-55---------7-77-77----------|
|-5-55-55-9-99-99-7-77-77-7-77-77--|
|-6-66-66-9-99-99-7-77-77-7-77-77--|
|-7-77-77-9-99-99-9-99-99-7-77-77--| x4
|-7-77-77-7-77-77-9-99-99-5-55-55--|
|-5-55-55---------7-77-77----------|
Guitar 2nd line(solo)
|-------------------------------------------|
|-------------------------------------------|
|-4-6--6-4--4-4--6-6-4--4-4--4--4-----------|
|---------------------------------7--4-7-7--|
|-------------------------------------------|
|-------------------------------------------|
|--------------------------------------------------------|
|--------------------------------------------------------|
|-4-6--6-4--4-4--6-6-4--4-4--4--4--------4---------------|
|---------------------------------7--4-7---7-4------7----|
|-----------------------------------------------7h9------|
|--------------------------------------------------------|
(Chorus)
|-5-55-55---------7-77-77----------|
|-5-55-55-9-99-99-7-77-77-7-77-77--|
|-6-66-66-9-99-99-7-77-77-7-77-77--|
|-7-77-77-9-99-99-9-99-99-7-77-77--|
|-7-77-77-7-77-77-9-99-99-5-55-55--|
|-5-55-55---------7-77-77----------|
Fade Out.
Great song, great solo. Enjoy yourself. Any Questions or comments mail me.




Ваше мнение



Капча