song spirit of '87
band rancid
taby eaiddhi ([email protected])
tuning standard


|-----------------------|
|-----------------------|
|------7777-------------|
|-4444-7777-9999-7777---|
|-4444-5555-9999-7777---|
|-2222------7777-5555---|

|---------|
|---------|
|-6---4---|
|-6---4---|
|-4---2---|
|---------|

|------------------------------|
|------------------------------|
|-------7----------------7-----|
|-4-----7-x16-9-----7----7-x8--|
|-4-x16-5-----9-x16-7-x8-5-----|
|-2-----------7-----5----------|
(play P.M but open at first chord)

Thats all. Listen to the song and play it.




Ваше мнение



Капча