Rancid b=bend
Sabrina h=hammer on
Demolition sessions

INTRO (also played in the chorus)
E------------------------------------------------------------
B------------------------------------------------------------
G-77765------------------------------------------------------
D-77675------------------------------------------------------a few times
A-55543-0-0-2-020--------------------------------------------
E------------------------------------------------------------

Verse (palm muted)
E------------------------------------------------------------
B------------------------------------------------------------
G-7----------------------------------------------------------
D-7-7-5------------------------------------------------------mess with these chords
A-5-7-5------------------------------------------------------
E---5-3------------------------------------------------------

Pre-chorus i dont care...i dont care
E------------------------------------------------------------
B------------------------------------------------------------
G-7----------------------------------------------------------
D-7----------7-5---------------------------------------------
A-5pickslide-7-5---------------------------------------------
E------------5-3---------------------------------------------

Chorus
E------------------------------------------------------------
B------------------------------------------------------------
G-77765------------------------------------------------------
D-77675------------------------------------------------------a few times
A-55543-0-0-2-020--------------------------------------------
E------------------------------------------------------------
Solo
e----------------------------------------------------------------------
B----------------------------------------------------------------------
G--13h14-14-14--13h14-14-14--13h14-14--14-14-14------------12-------12-
D------------------------------------------------14-14---14------14----
a----------------------------------------------------------------------
e----------------------------------------------------------------------

e--------------------------------------------------------------------
B--------------------------------------------------------------------
G---12--14---12------12--------12-----14-14----12--10--12--10--12----
D----------------14-------14-----------------------------------------
a--------------------------------------------------------------------
e--------------------------------------------------------------------

e------------------------------------------------------17-17-17-17-17--
B----------------------------------15-15-15-15-15-15---17-17-17-17-17--
G---14-14----12--10--12--10--12----14-14-14-14-14-14-------------------
D----------------------------------------------------------------------
a----------------------------------------------------------------------
e----------------------------------------------------------------------

e----------------------------------------------------------------------
B----------------------------------------------------------------------
G---13h14-14-14--13h14-14-14--13h14-14-14---13h14-14-14----13-12--10---
D----------------------------------------------------------------------
a----------------------------------------------------------------------
e----------------------------------------------------------------------

e----------------------------------------------------------------------
B----------------------------------------------------------------------
G------10--12--10--12--12b--10-------13b-13b--12-12--10--12--10--12----
D--12---------------------------12-------------------------------------
a----------------------------------------------------------------------
e----------------------------------------------------------------------

e----------------------------------------------------------------------
B----------------------------------------------------------------------
G----12b--10-------10--------------------------------------------------
D--------------12------------------------------------------------------
a----------------------------------------------------------------------
e----------------------------------------------------------------------

Thats it. please rate!




Ваше мнение



Капча