song:rwanda
band:Rancid
album:rancid2000(not poison!)
basic tuning
this song is very easy to play and is a ideal choice for begginners
see ya in the pit
andrew www.freewebs.com/timarmstrong
VERSE
e--------------------
B--------------------
G--------------------
D7-5-----5-7---------
A5-3-5-5-3-5---------
E----3-3-------------
CHORUS(let chords ring)
e---------------------
B---------------------
G---------------------
D-7-------------------
A-5-7-5---------------
E---5-3---------------
the bass is played the same but not in chords
If you got ne questions on rancid or comments email me at [email protected]




Ваше мнение



Капча