Roots radicals
by Rancid
Tabbed by Luke potter
[email protected]


intro:



took the sixth street bus.........

e 3-3-3-3-x-3-3-3-3-x-1-1-1-1-x-1-1-1-1-x-3-3-3-3-x-1-1-1-1-x-3-3-3-3-x-3-3-3-3
a 3-3-3-3-x-3-3-3-3-x-3-3-3-3-x-3-3-3-3-x-5-5-5-5-x-3-3-3-3-x-3-3-3-3-x-3-3-3-3
d ----5-5-x-----5-5-x-----3-3-x-----3-3-x-----5-5-x-----3-3-x-----5-5-x-----5-5
g ----5-5-x-----5-5-x-----2-2-x-----2-2-x-----4-4-x-----2-2-x-----5-5-x-----5-5
b --------x---------x---------x---------x---------x---------x---------x--------
e --------x---------x---------x---------x---------x---------x---------x--------

pre-chourus:


with the music..........
e --------------------------------------------------
a --------------------------------------------------
d 8-8-8-8--3-3-3-3--5-5-5-5--5-5-5-5-5-5-5-5-5-5-5-5
g 7-7-7-7--2-2-2-2--4-4-4-4--4-4-4-4-4-4-4-4-4-4-4-4
b 6-6-6-6--1-1-1-1--3-3-3-3--3-3-3-3-3-3-3-3-3-3-3-3
e 6-6-6-6--1-1-1-1--3-3-3-3--3-3-3-3-3-3-3-3-3-3-3-3

chourus:

give em' the boot........
e -----------1-1-1--3-3-3- e ------------
a 3-3-3-3-3--3-3-3--5-5-5- a 3-3-3-3-3---
d 5-5-5-5-5--3-3-3--5-5-5- d 5-5-5-5-5---
g 5-5-5-5-5--2-2-2--4-4-4- g 5-5-5-5-5---
b 4-4-4-4-4--------------- b 4-4-4-4-4---
e ------------------------ e ------------



solo:

2x
e ----------------------------------------]--------------------
a ----------------------------------------]--------------------
d ----------------------------------------]--/10------------10-
g ----10b-----10b-----10b-----------------]------8-10-10b-8----
b 8-8-----8-8-----8-8-----10-10-10-10-10--]--------------------
e 8-8-----8-8-----8-8-----11-11-11-11-11--]--------------------


sorry i accidentally
posted this tab upside down
because i am left handed and this is the
second on that i have ever done. it should not
be to difficult to understand.









Luke Potter
[email protected]





RANCID RULES




Ваше мнение



Капча