BAND : RANCID
SONG : ROADBLOCK
TABBED BY : QUINCY SLOAN

SUCH A GOOD SONG...AND ONE OF THE ONLY CREDITED TO BRETT REED

INTRO
E :------------------------------------------------------------------
B :------------------------------------------------------------------
G :-7-7-7-7--10--12--7-7-7-7--10--12--7-7-7-7--10--12---7------------
D :-7-7-7-7--10--12--7-7-7-7--10--12--7-7-7-7--10--12---7---3--5-----
A :-5-5-5-5--8---10--5-5-5-5--8---10--5-5-5-5--8---10---5---3--5-----
E :---------------------------------------------------------1--3-----

VERSE - heavy palm muting
E :--------------------------------------
B :--------------------------------------
G :-7-7-7-7------------------------------
D :-7-7-7-7--3-3--5-5--------------------
A :-5-5-5-5--3-3--5-5--------------------
E :----------1-1--3-3--------------------

CHORUS - string all these together for 1 Chorus
E :------------------------------------
B :------------------------------------
G :-3-3-3-3-----------7-7-7-7-7-7-7-7--
D :-3-3-3-3--5-5-5-5--7-7-7-7-7-7-7-7-- X2
A :-1-1-1-1--5-5-5-5--5-5-5-5-5-5-5-5--
E :----------3-3-3-3-------------------

E :-------------------
B :-------------------
G :-3-3-3-3-----------
D :-3-3-3-3--5-5-5-5-- X2
A :-1-1-1-1--5-5-5-5--
E :----------3-3-3-3--

E :---------------------------------------
B :---------------------------------------
G :-3-3-3-3-3-3-3-3--3-3-3-3-3-3-3-3--2~--
D :-3-3-3-3-3-3-3-3--3-3-3-3-3-3-3-3--2~-- X1
A :-1-1-1-1-1-1-1-1--1-1-1-1-1-1-1-1--0~--
E :---------------------------------------

THERE ARE A FEW SOLOS THROUGHOUT BUT IMPROVISE THESE




Ваше мнение



Капча