From: [email protected] (mastermind)
Song: Radio
Artist: Rancid
Album: Let's Go!
Intro:
D B G D
Never fell in love, until I fell in love with you
D B G D
Never knew what a good time was until I had a good time with you
D B G
If you wanna get the feelin and you wanna get it right then the music's gotta
D
be loud
D B G D A
For when the music hits I feel no pain at all
Verse 1:
D B G D
Warm summer night I was drinking with my dad
D B G D
He tried to give me love that I never had
D B G D
But he gave more love to his bottle of wine
D B G D (Riff A)
So I had to go out and find love of another kind
Riff A:
E-|--3-5--3-5--5-4-3-2-5-4-3-2-5-4-3-2-5-4-3-2--------------------------------|
B-|---------------------------------------------------------------------------|
G-|---------------------------------------------------------------------------|
D-|---------------------------------------------------------------------------|
A-|---------------------------------------------------------------------------|
E-|---------------------------------------------------------------------------|
Chorus:
D B G D
Radio Radio Radio Radio Radio Radio Radio
D B G D
When I got the music I gotta place to go
D B G D
Radio Radio Radio Radio Radio Radio Radio
D B G D A
When I got the music I gotta place to go
Solo:
E-|----------------------------------X-X-X------------------------------------|
B-|--3--5---7--9---6--8b---7--5--3---X-X-X------------------------------------|
G-|----------------------------------X-X-X------------------------------------|
D-|----------------------------------X-X-X------------------------------------|
A-|----------------------------------X-X-X------------------------------------|
E-|----------------------------------X-X-X------------------------------------|
Interlude:
D B G D
When I got the music I gotta place to go
D B G D
When I got the music I gotta place to go
D B G D
When I gotta place when I gotta place when I gotta place to go
D B G D
When I got the music I gotta place to go
Outro:
D B G D
When I got the music I gotta place to go
D B G D
When I got the music I gotta place to go
D B G D
When I got the music I gotta place to go
D B G D
When I got the music I gotta place to go
D B G D
E-|-------------------------3-------------------------------------------------|
B-|--7--7---4--4--4--4--------------------7-----------------------------------|
G-|--7--7---4--4--4--4---4--------------7-------------------------------------|
D-|--7--7---4--4--4--4---5-----------7----------------------------------------|
A-|--5--5---2--2--2--2---5--------5-------------------------------------------|
E-|----------------------3----0-----------------------------------------------|
Song:
Intro
Verse (w/riff 1)
Chorus
Verse (w/riff 1)
Chorus
Solo (w/riff 1)
Chorus
Interlude
Outro
Other Lyrics:
Here it is
Here I am
Turn it up
Fuckin' loud
Radio Clash, Magnificent Seven
I was a choir boy you showed me no heaven
Two Tbols surely lost
No remorse, ignored the cost




Ваше мнение



Капча