Song: RADIO HAVANA
Band: RANCID
Album: RANCID 2000
Tabbed By: DAN HAVOC, BASSIST FOR THE NEUTRALS
VERSES 1,2
G:-----------------------0-0-------------------0-2-2-0-----0-0-------
D:-----------------0-0--------2-0-------2-2-------------2-------2-0--
A:---------0-0-3-------------------3-3----------------------------------
E:---1-1------------------------------------------------------------------
VERSE 3
G:-----------------------------------------------------
D:-----------------------------------------------------
A:---------3-3-3-3-3-3-3-3-0-0-0-0--------------
E:---1>-----------------------------------3-3-3-3----
SECOND PART OF ALL THREE VERSES
G:-----------------------------------------------
D:-----------------------------------------------
A:---3-3-3-3-3-3-3-3-0-0-0-0--------------
E:-----------------------------------3-3-3-3---
CHORUS
G:---2-3-4-5-5-5-5-5-7--------------------------------------------------------
---
D:---------------------------5-5-5-5-5-5-6-7-7-7-7-7-7------------------------
-
A:---------------------------------------------------------------5-7-7-7-7-7-7
-7--
E:----------------------------------------------------------------------------
----------
BRIDGE
G:-------------------------------
D:-------13-14-15------15---
A:---15--------------15--------
E:-------------------------------
G:--------15-16-17------17---------
D:---17---------------17--------------
A:--------------------------------15----
E:---------------------------------------
FIRST BRIDGE ENDING
A:---12~~---
SECOND BRIDGE ENDING
A:---12>---10>---
OUTRO
G:-------------------------------
D:---3-2-0---------------0------
A:------------3-----0-2------3--
E:---------------3----------------
===============================
VERSION 2
==================================
Song:Radio Havanna
Band:Rancid
verse
G:-------------------------0-220-00------------------------------------
D:-----------22-55-2-0---22-----2--2-0---------------------------------
A:----00-1-0----------33-----------------------------------------------
E:-11------------------------------------------------------------------
pre-chorus
G:---------------------------------------------------------------------
D:---------------------------------------------------------------------
A:-3333333-0000--------------------------------------------------------
E:--------------3333---------------------------------------------------
chorus
G:-0-3-4-55555-77------------------------------------------------------
D:----------------55555-77777------------------------------------------
A:----------------------------7----------------------------------------
E:---------------------------------------------------------------------
G:---------------------------------------------------------------------
D:---------------------------------------------------------------------
A:-------------3333333333-0000----------------33333333--00000----------
E:-11111111111-----------------33333--------------------------333333---
verse (yeah i gotta right blah blah blah)
G:----------------------0-3-4-55----5----------------------------------
D:-0-1-2-33--3----x2-------------55------------------------------------
A:---------33------------------------3---------------------------------
E:---------------------------------------------------------------------
tabbed by the Iceman
questions...comments...blah blah send em here: [email protected]




Ваше мнение



Капча