Rancid
Radio
Lets Go
1994
[email protected]
Main RIFF, verse, Chorus:
D BM G A
e|-2-2-2-2-2------------3-3-3-3-3-|----------|
B|-3-3-3-3-3--3-3-3-3-3-0-0-0-0-0-|-2--------|
G|-2-2-2-2-2--4-4-4-4-4-0-0-0-0-0-|-2--------|
D|-0-0-0-0-0--4-4-4-4-4-0-0-0-0-0-|-2--------|
A|------------2-2-2-2-2-2-2-2-2-2-|----------|
E|----------------------3-3-3-3-3-|----------|
NOTE: Rythm is 1 2 3 and 4
Pre Chorus:
e|-3-5555-3-5555--8-P-5--8-P-5--8-P-5--8-P-5---|
B|-3-5555-3-5555-------------------------------|
G|---------------------------------------------|
D|---------------------------------------------|
A|---------------------------------------------|
E|---------------------------------------------|
Solo: 2x
e|----------------------------|
B|----------------------------|
G|-7-9-11-12-11-12-11-9-7-----|
D|----------------------------|
A|----------------------------|
E|----------------------------|
This is a very easy song you just got to peace it all together
listen to it.




Ваше мнение



Капча