Song: It's Quite Alright (one of the easier Rancid bass parts)
Band: Rancid
Album: Skull and Bone
tabbed by: joe( bassist of muchachos) E-Mail: [email protected]
Intro & Pre-Verse: (2 times)
G:-5-5-5-4-4-4-2-2-2-0-0-0----------------------------------------------------
D:---------------------------------3-3-3-2-2-2--------------------------------
A:-------------------------------------------------3-3-3-3-3-3----------------
E:----------------------------------------------------------------------------
Verse: (4 times each verse)
G:----------------------------------------------------------------------------
--------------------------
D:----------------------------------------------------------------------------
--------------------------
A:-----------------------------------------------------------8-8-8-8-8-8-8-8--
--------------------
E:--8-8-8-8-8-8-8-8-10-10-10-10-10-10-10-10---------------------8-8-8-8-8-8-8-
8-
Chorus: (One time)
G:----------------------------------------------------------------------------
D:----------------------------------------------------------------------------
A:--7-7-7-7-7-7-7-7-8-8-8-8-8-8-8-8-7-7-7-7-7-7-7-7-8-8-8-8-8-8-8-8
E:----------------------------------------------------------------------------




Ваше мнение



Капча