This is an awesome song, my guitar teacher listened to it and taught it to me,
so i just wanted to put it on the site for other people. Let me know how it goes for you.
[email protected]

Verse.
e|--------------------------------------------------------------------|
B|--------------------------------------------------------------------|
G|-555--------6666----------------------------------------------------|
D|-555-333-66-6666----------------------------------------------------|
A|-333-333-66-4444----------------------------------------------------|
E|-----111-44---------------------------------------------------------|
DDU DDU DD UUDU
That part ^^^^ is for the intro after the bass, for the verse i'm pretty sure
its palm muted. It switches though, you should be able to tell.

Middle of verse.
e---------------------------------------------------------------------|
B---------------------------------------------------------------------|
G--6-5-5-5--4-4-4-----------------------------------------------------|
D--6-5-5-5--4-4-4-5---------------------------------------------------|
A--4-3-3-3--2-2-2-5---------------------------------------------------|
E-----------------3---------------------------------------------------|

Chorus
e---------------------------------------------------------------------|
B---------------------------------------------------------------------|
G----------5----------------------------------------------------------|
D---7--6---5--6--5----------------------------------------------------|
A---7--6---3--6--5----------------------------------------------------|
E---5--4------4--3----------------------------------------------------|




Ваше мнение



Капча