Tabbed by:Nick Jacob
Email:[email protected]
Tuning:standard
Intro:
Nah Nah Nah Nah- Nah Nah Nah Nah- Nah Nah Nah Nah- Nah Nah Nah Nah-
e|---------------------------------------------------------------------------|
B|---------------------------------------------------------------------------|
G|--9------------------------------------9-----------------------------------|
D|--9-----------------9------------------9----------------7------------------|
A|--7-----------------9------------------7----------------7------------------|
E|--------------------7-----------------------------------5------------------|
Nah Nah Nah Nah- Nah Nah Nah- Nahhhhhhhhhhhh-
e|---------------------------------------------------------------------------|
B|---------------------------------------------------------------------------|
G|--9------------------------------------------------------------------------|
D|--9-----------------9------------7-----------------11----------------------|
A|--7-----------------9------------7-----------------11----------------------|
E|--------------------7------------5-----------------9-----------------------|
Verse:
I was an atheist, You wore the crucifix, We put our differences to the side
e|---------------------------------------------------------------------------|
B|---------------------------------------------------------------------------|
G|-9-----------------------------------------9------------------------------9|
D|-9------------------9----------------------9----------------------7--9----9|
A|-7------------------9----------------------7----------------------7--9----7|
E|--------------------7---------------------------------------------5--7-----|
Verse is the same for the whole song.
Chorus:
Campbell California Robert Please don't let me down, Robert I remember
e|---------------------------------------------------------------------------|
B|---------------------------------------------------------------------------|
G|------------------------------9--------------------------------------------|
D|--11--------------7-----------9--------------------9----11-----------7-----|
A|--11--------------7-----------7--------------------9----11-----------7-----|
E|--9---------------5--------------------------------7----9------------5-----|
when you used to run the town, I'll never forget and I'll always be you're
e|---------------------------------------------------------------------------|
B|---------------------------------------------------------------------------|
G|----------9--------------------------------------------------9-------------|
D|----------9----------------9-----11-----------7--------------9-------------|
A|----------7----------------9-----11-----------7--------------7-------------|
E|---------------------------7-----9------------5----------------------------|

friend. I'm gonna see you on the other side.
e|---------------------------------------------------------------------------|
B|---------------------------------------------------------------------------|
G|---------------------------------------------------------------------------|
D|--9------7----------9--11----------13----14--------------------------------|
A|--9------7----------9--11----------13----14--------------------------------|
E|--7------5----------7--9-----------11----12--------------------------------|




Ваше мнение



Капча