Rancid -> Old Friend

Intro (Repeat 2x)
G:-42-----------42--------------42----------------------
D:---4-2-0-242----4-2-0-222224----4-2-0-242-754---------
A:2------------2---------------2---------------57543----
E:------------------------------------------------------

Repeat 2x
G:------------------------------------------------------
D:------------------------------------------------------
A:----------2--024542-----------------------------------
E:5-875-0-24--2------2----------------------------------

Repeat 4x
G:------------------------------------------------------
D:------------------------------------------------------
A:--77-99-5557------------------------------------------
E:55----------------------------------------------------

Repeat 4x
G:------------------------------------------------------
D:------------------------------------------------------
A:--------55--------------------------------------------
E:55-00-22----------------------------------------------

Figured out by Luiz Manzano (Brasil)




Ваше мнение



Капча