Band: Rancid
Song: Not to Regret
Album: Rancid 2000
Tabbed By: Alec([email protected])

Intro:
G:--------14-16-14-16-16----14---
D:--14h16----------------16------
A:-------------------------------
E:-------------------------------

Intro Cont.:
G:-----14-16-14-16-16---------------------------
D:--16----------------16-14---------------------
A:----------------------------------------------
E:---------------------------9-9-9-9-9-9-9-9---

Verse:
G:----------7-----------------------------------
D:------7-9---99-77----77-----------------------
A:--7h9-------------999--999-7--7>-9>---7-------
E:-----------------------------------9-9--------

Chorus (part before stars twice then the part after):
G:-------------------------------------*-----------
D:--------------2----------------2-----*-----------
A:--5-5-5-54/5--5-2---------4/5--5-2--*-----------
E:-------------------2-2-2-2-----------*--2-pause--

Chorus Cont.:
G:--------------------------------------------
D:--------------2---------------------2-------
A:--5-5-5-54/5--5-2---------4/5--5-2>--4-5>--
E:-------------------2-2-2-2------------------

Ending:
G:-----------------------------------------------------
D:-----------------------------------------------------
A:-2>--4-5>--4(let ring)---------2(let ring)-----------
E:------------------------------------------------0----




Ваше мнение



Капча