Rancid
NAME
intro:
G
D
A 2 2 22 2222
E 2 2 22 2222
interlude
G
D 1 4 1
A 1 4 1 22 repete a few times
E 2
chorus 2X
G
D
G---------------------------------------7--------------------------------------|
-------------------------------------------------------------------------------|
D--------------------------------------------------7---------5-----------------|
-------------------------------------------------------------------------------|
A---5-------------------------5----------------------------------------2-------|
-------------------------------------------------------------------------------|
E-----------5-------3----------------------------------------------------------|
-------------------------------------------------------------------------------|
2222222222222222
A 0 0 0 0 0 0 0 0
E 0 0 0 0 0 0 0 0 2 2 2 2 2 2 2 2
verse 4X
G
D 2 2 2 2 4 4
A 0 0
E
SUBMITTED BY: ERIC FILEN




Ваше мнение



Капча