Rancid
MOTORCYCLE RIDE

Submitted by Matt Miller a.k.a. Slaurgon
INTRO
G---------------------------------------------------------------------------------
D---------------------------------------------------------------------------------
A-3-3-3-2-1-0-1-3-------------1-2-3-3-3-3-3-3-1-3-------------1-2-3-3-3-3-3-3-1-3-
E-----------------1-1-1-1-1-1---------------------1-1-1-1-1-1---------------------
G---------------------------------
D---------------------------------
A-1-1-1-1-1-1---1-3-3-3-2-1-0-1-3-
E-------------3-------------------
VERSE
G-----------------------------------------------------------------
D---------------------------------------------------0-1-2-3-3-0-3-
A---------3-3-3-2-1-1-1-3-----------------3-3-3-2-1---------------
E-1-1-1-3-----------------1-1-1-1-1-1-1-3-------------------------
BRIDGE
G-------------------------------------------
D-------------------------------------------
A-1-1-1-1-1-1-1-1-1-1-1-1-1-1-1-2-3-2-3-2-3-
E-------------------------------------------
CHORUS
G-----------------------------------------------------------------------------
D-----------------------------------------------------------------------------
A---------------5-3-3-3-3-3-3---3---------------5-3-3-3-3-3-3---3-1-1-1-1-1-1-
E-1-1-1-1-1-1-5---------------5---1-1-1-1-1-1-5---------------5---------------
G---------------------------------------------------------------
D---------------------------------------------------------------
A---1-3-3-3-3-3-3---3-1-1-1-1-1-1---1-3-3-3-3-3-3-3-3-2-1-0-1-3-
E-3---------------3---------------3-----------------------------




Ваше мнение



Капча