song memphis
band rancid
taby eaiddhi ([email protected])
tuning standard


|---3-3--1-0----0--------3----3-----|
|-3-3-3------3----0---3/5--3/5-3/5--|
|---4-4---------------0----0---0----|
|---5-5-----------------------------|
|-----------------------------------|
|-----------------------------------|
Riff A
|-----------------------------------|
|-----------------------------------|
|--5--5---5--5-----5--5---5--5------|
|--5--5---5--5--5--5--5---5--5--5---| x2
|--3--3---3--3--5--3--3---3--3--5---|
|---------------3---------------3---|


|--3-----5----|
|--5-----6----|
|--5-----5----| x4
|--5-----5----|
|-------------|
|-------------|


Guitar 1st line
|-3-33-3-4-44-4-1-11-1-3-33-3-5-55-5-3-33-3-33333333--|
|-5-55-5-5-55-5-1-11-1-5-55-5-5-55-5-3-33-3-33333333--|
|-5-55-5-4-44-4-2-22-2-5-55-5-5-55-5-4-44-4-44444444--|
|-5-55-5--------3-33-3-5-55-5-7-77-7-5-55-5-55555555--|
|-----------------------------------------------------|
|-----------------------------------------------------|
Guitar 2nd line
|------------------------------------------------------------------|
|------------------------------------------------------------------|
|-------------9999----10101010------------------------55555555-----|
|-10101010----9999-x2-10101010-x2-10101010----7777----55555555-x2--|
|-10101010-x2-7777-----8-8-8-8----10101010-x2-7777-x2-33333333-----|
|--8-8-8-8-------------------------8-8-8-8----5555-----------------|

play verse again and chorus then play Riff A

|-------------------------------------------|
|-------------------------------------------|
|-------------------------5555----5555------|
|-3333----2222----5555----5555-x2-5555-x2---| x2
|-3333-x4-2222-x4-5555-x4-3333----2222------|
|-1111----0000----3333----------------------|

|--------------------------------------------|
|--------------------------------------------|
|-----------------------333/55555555555553---|
|---------------------55------------------5--|
|-2/3332/3332/3332/333-----------------------|
|--------------------------------------------|

|------------------------------------------------|
|------------------------------------------------|
|-----------------------333/55555555555553-3-----|
|---------------------55------------------5-543--|
|-2/3332/3332/3332/333---------------------------|
|------------------------------------------------|

Play verse
Play chorus
Play riff A

|----------|
|----------|
|-5-4-5----|
|-5-4-5----|
|-3-2-3----|
|----------|

Fine.




Ваше мнение



Капча