SOlO:
---7-/9----------------------------------9-11---12--15-16--19--
-5-------7--9-----------------------9-11-----------------------
---------------7--9-----------9-11-----------------------------
--------------------7-9---9-11---------------------------------
--------------------------------------------19-----------------
-19--12-14-------------------------------12-----12-------------
-----------12-14-----------------111111--------------14--------
-----------------12-14---101019-------------------------15-----
---------------------------------------3-5---10--19--15---14---
-------10---777--------------------3-5-------------------------
----------------888------------3-5-----------------------------
-8--8-----------------555--3-5---------------------------------
----------------------------3-5-----------------------1919---
-----------------------5-7-------999----------12--14---------
-----------------5--7-----------------101010-----------------
-11-12--9---7--5--------------------------------------------5
There it is I hope you enjoy!




Ваше мнение



Капча