Rancid
Lock, Step & Gone
By poncho phil

Chorus:
G:----------------
D:-----4--4-444---
A:-4-44---------4-
E:----------------

Verse:
G:----------------------4----------------------------
D:----------------2-2456-6542------------------44664-
A:-44------------4-4---------42--44----------44------
E:----00-44-22-4---------------4---00-44-22-4--------

Bridge:
G:--------------------464------------------------------4464---
D:--------------2-2456---6542-------------------3434566----64-
A:44-----------4-4-----------42---44----------44--------------
E:---00-44-22-4----------------------00-44-224----------------

Fill:
G:--------- G:---------------
D:--------- D:---------------
A:-----2--- A:---------------
E:-0000-24- x3 then E:-555555-777777-




Ваше мнение



Капча