Rancid - Lock, Step, & Gone
Transcribed by Mike Vanderkolff

INTRO AND VERSES:

e|-----------------------------------------------------------|
B|-----------------------------------------------------------|
G|-10-10-11-11-10--------------------------------------------|
D|-11-11-11-11-11--------------------------------------------|play a bunch of times
A|-11-11-9--9--11--------------------------------------------|
E|-9--9--------9---------------------------------------------|

Chorus:

e|--------------| |--------------------------------------|
B|--------------| |--------------------------------------|
G|-66-----------| |--66----------------------------------|
D|-66-22-66-44--| x3 |--66-44-66-44-------------------------|
A|-44-22-66-44--| |--44-44-66-44-------------------------|
E|----00-44-22--| |-----22-44-22-------------------------|

Solo: (Guitar 2 plays chorus in background)

e|----------------------|------------------------------------|
B|----------------------|-----------------7-9-7-6------------|
G|-12/13-13-13-13-13-13-|-6-9-6-9-6-9-6-9--------------------|
D|----------------------|------------------------------------|
A|----------------------|------------------------------------|
E|----------------------|------------------------------------|

End on:

e|---|
B|---|
G|-6-|
D|-6-|
A|-4-|
E|---|




Ваше мнение



Капча