LISTED M.I.A. - Rancid
By:Andrew Mcshan ( [email protected])
B E F# A Eb D
e---X----X----X----X----X----X----
B---X----X----X----X----X----X----
G---X----9----X----X----8----7----
D---9----9----4----7----8----7----
A---9----7----4----7----6----5----
E---7----X----2----5----X----X----
Intro riff x2:
e---------------------------------
B-7-7-7-7-8-8-8-8-7-7-7-7-7-5-3-0-
G---------------------------------
D---------------------------------
A---------------------------------
E---------------------------------
B E B E B
Goddamn it man almost had it
B E B E B
Stuck in the sewer beneath all the maggots
B E B
I ain't fooling I been pursuing
E B E B E
A way to get out of these dirty old ruins

B Eb E F#
I'm checking out I'm never coming back again
B Eb E F#
I'm checking out I'm listed M.I.A.

B E B E B
Goddamn it man almost had it
B E B E B
They threw out the door calling me a faggot
B E B
I ain't done I only yet begun
E B E B E
West Oakland is the place where I'm coming from

B Eb E F#
I'm checking out I'm never coming back again
B Eb E F#
I'm checking out I'm listed M.I.A.
e----------------------------------------------
B----------------------------------------------
G---------7-7-7-9-9-7------------7-7-7-9-9-7---
D-7-7-8-9-------------9--7-7-8-9-------------9-
A----------------------------------------------
E----------------------------------------------

e--------------------------------------------------------------------------
B-7-7-7-7-8-8-8-8-7-7-7-7-7-5-3-0-7-7-7-7-8-8-8-8-7-7-7-7-7-5-3-(slide up)-
G--------------------------------------------------------------------------
D--------------------------------------------------------------------------
A--------------------------------------------------------------------------
E--------------------------------------------------------------------------

A F# B
Oh yeah
A F# B
Oh yeah
A F# B
Oh yeah

B A D F#

B E B E
Goddamn it man almost had it
E B E B E B
Well I did it again yeah I do it outta habit
B E B E
I'm numb it ain't no fun
B E B E B
I'm less than zero when you add up the sum

B E B E
I'm checking out yeah it ain't no doubt yeah
E B E B E B
A courtship built from anger is to what it amounts
B E B E
I almost had it I almost had it
E B E
I came so close man I almost had it

B Eb E F#
I'm checking out I'm never coming back again
B Eb E F#
I'm checking out I'm listed M.I.A.

B Eb E F#
I'm checking out I'm never coming back again
B Eb E F# B EEE B
I'm checking out I'm listed M.I.A.




Ваше мнение



Капча