Song: Let's go
Artist: Rancid
Tuning: Standard (E,A,D,G,B,e)
[email protected]

This song is really cool, and there was no tab for it. Mail me any corrections.

Intro
------------------------------------------
------------------------------------------ Then repeat
-------9-9-----------9-9-9---------------- same chords
-7-7---9-9---7-7-7---9-9-9---------------- but faster
-7-7---7-7---7-7-7---7-7-7----------------
-5-5---------5-5-5------------------------

Verse
------------------------------------------
------------------------------------------
----------7-7-7-7--9-9-9-9--7-7-7-7------- palm muted
-7-7-7-7--7-7-7-7--9-9-9-9--7-7-7-7------- (before chorus
-7-7-7-7--5-5-5-5--7-7-7-7--5-5-5-5------- add a A7 D9 G9)
-5-5-5-5----------------------------------

Chorus
------------------------------------------
------------------------------------------
----------7-7-7-7-----------------7-7-7-7-
-7-7-7-7--7-7-7-7---x3--2-2-2-2---7-7-7-7-
-7-7-7-7--5-5-5-5-------2-2-2-2---5-5-5-5-
-5-5-5-5----------------0-0-0-0-----------

Bridge (just before outro)
------------------------------------------
------------------------------------------
------------------------------------------
-7-7-7-7--5-5-5-5--4-4-4-4--2-2-2-2-------
-7-7-7-7--5-5-5-5--4-4-4-4--2-2-2-2-------
-5-5-5-5--3-3-3-3--2-2-2-2--0-0-0-0-------

Outro
------------------------------------------
------------------------------------------
-------9-9-----------9-9---------End on---
-7-7---9-9---7-7-7---9-9---x2------7------
-7-7---7-7---7-7-7---7-7-----------7------
-5-5---------5-5-5-----------------5------




Ваше мнение



Капча