Rancid
Leicester Square

Tabbed by Matthew Picheca

Riff #1

G:-----------------------------------------------------
D:--------------3-0-3-0-3-5----------------3-0-3-0-3-5-
A:--------2-3-5----------------------2-3-5-------------
E:-3----3---------------------3----3-------------------

Riff #1 (cont.)

G:---------------------------------------------------------
D:------------------------------------------------------3-5-
A:-------0-2-3-5--------0-2-3-5-----------------0-2-3-5-----
E:-3---3----------3---3----------3---3-3---3-33-------------

Riff #2 (play twice)

G:---------------------------------------------2-2-5-5-3-3-2-2-----
D:-2-2---------------------3-3---------2-2-5-5-----------------2---
A:-----5-5-2-2-----------------2-2-3-3---------------------------5-
E:-------------5-5-1-1-5-5-----------------------------------------




Ваше мнение



Капча