BAND : RANCID
SONG : KILLING ZONE
TABBED BY : QUINCY SLOAN

ONE OF THE B-SIDES TO THE 'FALL BACK DOWN' SINGLE. REAL SIMPLE AND FUN TO PLAY

INTRO/VERSE - listen to it for the palm muting rhythm
E :----------------------------------------------------------------------
B :----------------------------------------------------------------------
G :-----------------------------------3-3-3-3-3-3-3-3--5-5-5-5-5--3~-----
D :-5-5-5-5-5-5-5-5--5-5-5-5-5-5-5-5--3-3-3-3-3-3-3-3--5-5-5-5-5--3~-----
A :-5-5-5-5-5-5-5-5--5-5-5-5-5-5-5-5--1-1-1-1-1-1-1-1--3-3-3-3-3--1~-----
E :-3-3-3-3-3-3-3-3--3-3-3-3-3-3-3-3-------------------------------------

PRE-CHORUS
E :------------------------------------
B :------------------------------------
G :-5--5-----3-------------------------
D :-5--5--3--3-------------------------
A :-3--3--3--1-------------------------
E :-------1----------------------------

CHORUS
E :-----------------------------------------------------------------------
B :-----------------------------------------------------------------------
G :-----------------------------------3-3-3-3-3-3-3-3--3-3-3-3-3-3-3-3----
D :-5-5-5-5-5-5-5-5--5-5-5-5-5-5-5-5--3-3-3-3-3-3-3-3--3-3-3-3-3-3-3-3----
A :-5-5-5-5-5-5-5-5--5-5-5-5-5-5-5-5--1-1-1-1-1-1-1-1--1-1-1-1-1-1-1-1----
E :-3-3-3-3-3-3-3-3--3-3-3-3-3-3-3-3--------------------------------------

NO SOLO...SORRY




Ваше мнение



Капча