From: [email protected] (.)
To: [email protected]
Subject: basstabs
Date: Sat, 11 Jan
Junky man
By Rancid
Intro
G---------------------------------------------------------------------
D---------------------------------------------------------------------
A---0-3-0----------0-3-5-----5-5-4-4-2-2-0----------------------------
E---------------------------------------------------------------------
Riff 1 Repeat
G---------------------------------------------------------------------
D---------------------------------------------------------------------
A--0-0-0-0-0-0-0-0-0-0-5-5-5-5-5-5-5-5-5-5-5--------------------------
E---------------------------------------------------------------------
Riff 2 Repeat

G---------------------------------------------------------------------
D--------------------------------------7-7-7-5-5-5-7------------------
A--0-0-0-0-0-0-7-7-7-7-7-7-5-5-5-5-5-5--------------------------------
E---------------------------------------------------------------------
Riff 3 (2x)
G-||----------------------||------------------------------------------
D-||*--------------------*||------------------------------------------
A-||*----0-2-4-5-5-4-2-0-*||---0-2-4-5-5-4-5--7-7/5-5/4-4/2-----------
E-||---2------------------||-2----------------------------------------

This song is absolutely correct. Thanks to the original author, Serge
Gauthier.




Ваше мнение



Капча