(Feedback during bass intro, then)
*Intro*
E ----------------------------------------------------------------------------------
B ----------------------------------------------------------------------------------
G -5---------12----------14----------11-----------5---------12----------11----------
D -5---------12----------14----------11-----------5---------12----------11----------
A -3 (8x)----10 (8x)-----12 (8x)-----8 (8x)------3 (8x)-----10 (8x)-----8 (16x)-----
E ----------------------------------------------------------------------------------
*Verse*
E -----------------------------------------------------------------------------------
B -----------------------------------------------------------------------------------
G -x-x-5-x-x-x-5---------------------------------------------------------------------
D -x-x-5-x-x-x-5--x-x-5-x-x-x-5--x-x-7-x-x-x-7--x-x-3-x-x-x-3------------------------
A -x-x-3-x-x-x-3--x-x-5-x-x-x-5--x-x-7-x-x-x-7--x-x-3-x-x-x-3------------------------
E ----------------x-x-3-x-x-x-3--x-x-5-x-x-x-5--x-x-1-x-x-x-1------------------------
*Chorus*
E ----------------------------------------
B ----------------------------------------
G -5--------------------------------------
D -5--------5--------7-------3------------
A -3 (4x)---5--------7-------3------------
E ----------3(4x)----5(4x)---1(4x)--------
*Outro*
E --------------------------------------------------------
B --------------------------------------------------------
G -5------------------------------------------------------
D -5-------5--------7-------3-----------------------------
A -3 (8x)--5--------7-------3-----------------------------
E ---------3(8x)----5(8x)---1(8x)-------------------------
(on the last time, play)
E ---------------------------------------------------------------
B ---------------------------------------------------------------
G -5------------------------------------------5------------------
D -5--------5-------7-------3--------3--------5------------------
A -3 (8x)---5-------7-------3--------3--------3 (hold last note)-
E ----------3(8x)---5(8x)---1--------1---------------------------
(X= Palm Mute)

Intro/break
Verse
Chorus
Verse
Chorus
Intro/break
Verse
Chorus
Outro (theres a high part in outro that i cant figure out, it plays to soft)




Ваше мнение



Капча