BAND : RANCID
SONG : IVORY COAST
TABBED BY : QUINCY SLOAN

ANOTHER OFF 'INDESTRUCTIBLE'....EASY AND PLAY FAST AND PALM MUTE THE VERSE

INTRO - the 799 chord is where Tim shouts 'GO!!'
E :-------------------------
B :-------------------------
G :-7-7-7-7-7--9------------
D :-7-7-7-7-7--9------------ [X4]
A :-5-5-5-5-5--7------------
E :-------------------------

VERSE
E :-----------------------------------------------------------------------
B :-----------------------------------------------------------------------
G :------------------5-5-5-5----------------------------9-9-9-9-9-9-9-9---
D :-5-5-5-5-5-5-5-5--5-5-5-5--5-5-5-5--5-5-5-5-5-5-5-5--9-9-9-9-9-9-9-9---
A :-5-5-5-5-5-5-5-5--3-3-3-3--5-5-5-5--5-5-5-5-5-5-5-5--7-7-7-7-7-7-7-7---
E :-3-3-3-3-3-3-3-3-----------3-3-3-3--3-3-3-3-3-3-3-3--------------------

PRE-CHORUS
E :--------------------------------------
B :--------------------------------------
G :-7-7-7-7-7-7-7-7--5-5-5-5-------------
D :-7-7-7-7-7-7-7-7--5-5-5-5--5-5-5-5---- [X3]
A :-5-5-5-5-5-5-5-5--3-3-3-3--5-5-5-5----
E :---------------------------3-3-3-3----

PRE-PRE-CHORUS - play un muted
E :--------------------------------
B :--------------------------------
G :-7~---------------5~------------
D :-7~---------------5~------------
A :-5~---------------3~------------
E :--------------------------------

CHORUS
E :----------------------------------------------------------------------
B :----------------------------------------------------------------------
G :-----------------------------------5-5-5-5-5-5-5-5--5-5-5-5-5-5-5-5---
D :-5-5-5-5-5-5-5-5--5-5-5-5-5-5-5-5--5-5-5-5-5-5-5-5--5-5-5-5-5-5-5-5---
A :-5-5-5-5-5-5-5-5--5-5-5-5-5-5-5-5--3-3-3-3-3-3-3-3--3-3-3-3-3-3-3-3---
E :-3-3-3-3-3-3-3-3--3-3-3-3-3-3-3-3-------------------------------------




Ваше мнение



Капча