IF THE KIDS ARE UNITED - Rancid
Intro
G|--------------------------------------2-------|
D|--7754422---------1-2-544-2--------245-542----|
A|----------5545545----------54-0-245-------542-|
E|---------------------------------------------5|
Verse (instrumental)
G|---------------------------------------|
D|---------------------------------------|
A|---------------------------------------|
E|---5-3-5-3-5-3-5-3-5-5-3-5-3-5-3-5-3-5-|
Verse (lyrical part)
G|--------------------------|
D|--------------------------|
A|--------------0345>-32-0>-|
E|--0345>-32-0>-------------|
Chorus
G|--------------------------------------|
D|--7754422---------1-2-544-2--------245|
A|----------5545545----------540-1245---|
E|--------------------------------------|




Ваше мнение



Капча