Date: Tue, 21 Jan 1997 21:34:00 +0100
From: Krane
-----------------------------------------------------------------------
I WANNA RIOT - Rancid
-----------------------------------------------------------------------
Transcribed by:Morten Krane
I found that the version of this song already on OLGA to be completely
wrong (maybe I'm both crazy and stupid). Anyway this is a version that
I know works. I tabbed the first part, but then I got fed up with it. The
rest of the song uses either of the three chord "sets" that I tabbed in
the beginning.
Intro:
My way: (sounds good when you play alone)
D F G D D F G __
e|--2----1----3------2--2----1----3----| |
B|--3----1----3------3--3----1----3----| |
G|--2----2----4------2--2----2----4----| |
D|--0----3----5------0--0----3----5----| rep. (xtimes) |
A|-------------------------------------| |
E|-------------------------------------| |
|
Probably the right way: |
e|-------------------------------------| |
B|-------------------------------------| |
G|--11---14---16-----11-11---14---16---| \
D|--12---15---17-----12-12---15---17---| rep. (xtimes) > Same thing
A|--12---15---17-----12-12---15---17---| /
E|--10---13---15-----10-10---13---15---| |
|
Alternate right way: |
e|-------------------------------------| |
B|--7----10---12-----7--7----10---12---| |
G|--7----10---12-----7--7----10---12---| |
D|--7----10---12-----7--7----10---12---| rep. (xtimes) |
A|--5----8----10-----5--5----8----10---| |
E|-------------------------------------| __|
Bass (I think):
G|-------------------------------------|
D|--0----3----5------0--0----3----5----|
A|-------------------------------------|
E|-------------------------------------|
G|-------------------------------------|
D|--0----------------------------------|
A|-------4----3------0-----------------|
E|----------------------4----3----1----|
D F G
e|--------------------------------------------------------------|
B|--------------------------------------------------------------|
G|--------------------------------------------------------------|
D|--3-3-3--3--2--3--6--7-------3-3-3--3--3--2--5---5--5--3--2---|rep. (xtimes)
A|------------------------5-------------------------------------|
E|--------------------------------------------------------------|
OI!
Verse:
Crd. prog.: D D F G (use either of the three crd. alternatives above)
Chorus:
Backing guitar:
Crd. prog.: D D D D D D D D D D D D F G
Lead Guitar (or bass; I dunno)
Crd. prog.: D D D D F G
Date: Tue, 16 Dec 1997 15:10:35 +0100
From: Krane
Subject: LYR: I Wanna Riot
Written by: Rancid
Transcribed by: [email protected] Innes
Posted by: Morten Krane
I thought it would be better to post these lyrics by themselves rather than to
merge them into my tab. I hate long documents. It's not 100% correct, but Daniel
put it together rather nicely. I just altered some parts that were obviously
wrong.
----------------------------------------------------------------------------
I Wanna Riot
I saw a man, get the beat dead
Took his money outta his wallet and fell dead on the curb
I saw them gather celebrate the crime
Teacher knows were bout to learn a lesson of their kind
I raised my hand, I got another question
If I start a riot, will I get protection?
Cause I'm the kid who got a lot of problems
If I throw a brick maybe the brick will go and solve them
Oh, yeah, I wanna riot!
Oh, yeah, I wanna riot!
I'm boiling up, city's on heat
Red alert tension, you know it's on the street
Code blue, city of the dead
Silence of the night with the lights bloody red
See how we do this, see how we ride
Throw a brick, light a fuse, it starts to blow, duck inside
Your statistic hammered on my brain
Brand it with another, another pawn in the game
Oh, yeah, I wanna riot!
Oh, yeah, I wanna riot!
In front of me the bakery
Gettin outta line, a dine in, burnin' burglary
My place is burning, burning so quick
Burning like a candle at the end of its wick
Phil, I turned the dial, I turned the channel
I turned it to a monster fight on the eternal battle
I need some help man, there is no doubt
If I'm gonna go down I'm gonna take somebody out
Oh, yeah, I wanna riot!
Oh, yeah, I wanna riot!
Oh, yeah, I wanna riot!
Oh, yeah, I wanna riot!
Riot!
Date: Sat, 22 Jun 1996 15:34:20 -0500
From: Christina Tanttari
I Wanna Riot by Rancid
Drop-D Tuning
INTRO
Gtr 1 and Gtr 2
E------------------------
B------------------------
G------------------------
D--10-12-13--10-10-12-13-
A--10-12-13--10-10-12-13-
D--10-12-13--10-10-12-13-
Riff A
Gtr 1
E--------------------------------------------------------------------------
B--------------------------------------------------------------------------
G--------------------------------------------------------------------------
D-3-3-2-1-3-6-7-6-3-3-2-3-4-7-5-4-3-2-3-3-2-1-3-6-7-5-3-3-2-3-4--7--5-4-3-2
A--------------------------------------------------------------------------
D--------------------------------------------------------------------------
Gtr 2
E--X-X-1-1-X-X-1-1-X-X-1-1-X-X-1-1-X-X-1-1-X-X-1-1-X-X-1-1-X-X-1-1-
B--X-X-1-1-X-X-1-1-X-X-1-1-X-X-1-1-X-X-1-1-X-X-1-1-X-X-1-1-X-X-1-1-
G------------------------------------------------------------------
D------------------------------------------------------------------
A------------------------------------------------------------------
D------------------------------------------------------------------
VERSE
Gtr 1 and Gtr 2
E--X-X-1-1-X-X-1-1-X-X-1-1-X-X-1-1-X-X-1-1-X-X-1-1
B--X-X-1-1-X-X-1-1-X-X-1-1-X-X-1-1-X-X-1-1-X-X-1-1
G-------------------------------------------------
D-------------------------------------------------
A-------------------------------------------------
D-------------------------------------------------
CHORUS
Gtr 1 and Gtr 2
E--------------------------------------------------------------------------
B------------------------------------------------------------------
G------------------------------------------------------------------
D9-9-10-10-11-11-12-12-13-13-14-14-9-10-10-11-11-12-12-13-13-14-14continued
A9-9-10-10-11-11-12-12-13-13-14-14-9-10-10-11-11-12-12-13-13-14-14
D9-9-10-10-11-11-12-12-13-13-14-14-9-10-10-11-11-12-12-13-13-14-14
^ strum hard
E------------------------------------------------------
B------------------------------------------------------
G------------------------------------------------------
D--9-9-10-10-11-11-12-12-13-13-14-14--10-12-13---------
A--9-9-10-10-11-11-12-12-13-13-14-14--10-12-13---------
D--9-9-10-10-11-11-12-12-13-13-14-14--10-12-13---------
^ ^ ^ strum hard
END RIFF
Gtr 1 and Gtr 2
E----------------
B----------------
G----------------
D--10-10-12-13---
A--10-10-12-13---
D--10-10-12-13---
Intro 2x
Riff A 2x
Verse (keep repeating until the chorus)
Chorus 2x
Verse (keep repeating until the chorus)
Chorus 2x
Riff A 2x
Intro
Verse(keep repeating until the chorus)
Chorus 3x
End Riff
This is one of the first tabs that I've done, so no guarentee. I'm not
too
sure about the chorus, but everything else seems right. If you have any
comments, corrections, other Rancid tab E-Mail me at [email protected]
Justin

Date: Sat, 8 Jun 1996 17:28:18 -0400 (EDT)
From: [email protected] (O.B.A. President)
Song: I Wanna Riot
Artist: Rancid
Album: Punk O Rama
This is a great Rancid song that I saw this song tabbed wrong, so I thought
I'd do it myself.
Chords Used
D Eb G Dm
_________ __________ __________ __5_______
_5_______ __8_______ __10______ ____6_____
____7____ ______10__ ______12__ ______7___
____7____ ______10__ ______12__ ______7___
_________ __________ __________ __5_______
_________ __________ __________ __________
Opening:
D Eb G, D D Eb G
D Eb G, D D Eb G
Main Riff
_____________________________________________________________
_____________________________________________________________
________________1 2_______________________0 0 0______________
____3 3 3 2 3________0______3 3 3 3 2______________3 0_______
_____________________________________________________________
_____________________________________________________________
Verse
I'm not sure if this part is right.
G G G G G G Dm Dm Dm Dm Dm Dm - Played in a ska rythym.
Chorus
For the chorus, just follow the same pattern as the opening.


Ваше мнение



Капча