Artist:Rancid
Song:I wanna Riot
Album:Roots Radicals(single)

INTRO

E------------------------------------------------------------
B------------------------------------------------------------
G--7-10-12-77-10-12---7-6-5----------------------------------
D--5-10-12-77-10-12---7-6-5-77-6-5---------------------------
A--5--8-10-55--8-10---5-4-3-77-6-5---------------------------
E---------------------------55-4-3---------------------------

Surf Guitar Part
E------------------------------------------------------------
B------------------------------------------------------------
G--------1-2--------000--------------------------------------
D-333-2-3---0-3333-2----3-2-0--------------------------------
A------------------------------------------------------------
E------------------------------------------------------------

CHORUS
OH...YEAH...I WANNA RIOT
E------------------------------------------------------------
B------------------------------------------------------------
G-7-10-12----------------------------------------------------
D-7-10-12----------------------------------------------------
A-5--8-10----------------------------------------------------
E------------------------------------------------------------
OUTRO
RIOT!
E------------------------------------------------------------
B------------------------------------------------------------
G-7-10-12-77-10-12-------------------------------------------
D-7-10-12-77-10-12-------------------------------------------
A-5--8-10-55--8-10-------------------------------------------
E------------------------------------------------------------

HAVEN'T FIGURED OUT THE SKA CHORDS IN THE VERSE YET.




Ваше мнение



Капча