----------------------------------------------------------------------
HYENA - Rancid
----------------------------------------------------------------------

By: tom hermsdorfer
Standard Tuning (EADGBe)

i felt like tabbing so i did for one of my favorite songs. im 100% sure that this
is the right tab for hyena. i got the whole song down except for the solo(its pretty
tricky), but i workin on it. im only writing down the chords to play. so you're gonna
have to figure out the beat, enjoy!

Intro:
|---------------------|
|---------------------|
|---------------------|
(feedback)|-5=(ring out)==10/8-|
|-5=============10/8-|
|-3==============8/6-|

Intro/Verse1:
|-----------------|
|-----------------|
|---8---8---8-5-7-|
|-5-8-5-8-5-8-5-7-| 2X
|-5-6-5-6-5-6-3-5-|
|-3---3---3-------|

Verse2:
|-----|
|-----|
|---5-|
|-5-5-| 9X
|-5-3-|
|-3---|

Chorus:
|---------------------|
|---------------------|
|---------------------|
|-3-10-8-3-3-10-13-8-3| 2X
|-3-10-8-3-3-10-13-8-3|
|-1--8-6-1-1--8-11-6-1|

Verse2:
|-----|
|-----|
|---5-|
|-5-5-| 9X
|-5-3-|
|-3---|

Chorus:
|---------------------|
|---------------------|
|---------------------|
|-3-10-8-3-3-10-13-8-3| 2X
|-3-10-8-3-3-10-13-8-3|
|-1--8-6-1-1--8-11-6-1|

Verse1:
|-----------------|
|-----------------|
|---8---8---8-5-7-|
|-5-8-5-8-5-8-5-7-| 2X
|-5-6-5-6-5-6-3-5-|
|-3---3---3-------|

Verse1:
|-------------------|
|-------------------|
|---8---8---8---8---|
|-5-8-5-8-5-8-5-8-8-|
|-5-6-5-6-5-6-5-6-8-|
|-3---3---3---3---6-|
(p.m.)**************

Verse1:
|-----------------| |-----|
|-----------------| |-----|
|---8---8---8---8-| |-8-3-|
|-5-8-5-8-5-8-5-8-| |-8-3-|
|-5-6-5-6-5-6-5-6-| |-6-1-|
|-3---3---3---3---| |-----|
(p.m.)*****************

(guitar1 plays solo, while guitar2 plays chorus)

Verse2:
|-----|
|-----|
|---5-|
|-5-5-| 9X
|-5-3-|
|-3---|

Interlude:?working on?

Chorus:
|---------------------|
|---------------------|
|---------------------|
|-3-10-8-3-3-10-13-8-3| 2X
|-3-10-8-3-3-10-13-8-3|
|-1--8-6-1-1--8-11-6-1|

(end)




Ваше мнение



Капча