--------------------------------------------------------
Rancid-Hoover Street (guitare)
---------------------------------------------------------
Tabbed by: by someone at band tabs.com ([email protected])
e:---------------------------------------------------------------
B:---------------------------------------------------------------
G:-5-5-5-5-5--------------------------4-4------------------------
D:-5-5-5-5-5--5-5-5-5-5---3-3-3-3-3---4-4---5-5-5----------------
A:-7-7-7-7-7--5-5-5-5-5---3-3-3-3-3---2-2---5-5-5----------------
E:------------7-7-7-7-7---5-5-5-5-5---------7-7-7----------------
e:---------------------------------------------------------------
B:---------------------------------------------------------------
G:-5----------4--------------------------------------------------
D:-5----------4--------------------------------------------------
A:-7----------2--------------------------------------------------
E:---------------------------------------------------------------
p.m. p.m. listen to the cd for the rythem
solo (x3)
e:---------------------------------------------------------------
B:-----10-10-10--------------------------------------------------
G:-7-7----------7----------7-9-7---------------------------------
D:-----------------9-9-7-----------------------------------------
A:---------------------------------------------------------------
E:---------------------------------------------------------------
e:-----------------11-11-10-10-8-8-------------------------------
B:-----10-10-10--------------------------10-10-10-----------------
G:-7-7----------7------------------------------------------------
D:---------------------------------------------------------------
A:---------------------------------------------------------------
E:---------------------------------------------------------------
e:-------8------8-10-11-10-8-------8-10-11-10-8--------------8---
B:-10-10---10-----------------10-10-------------10-10-8-10-10-10-
G:---------------------------------------------------------------
D:---------------------------------------------------------------
A:---------------------------------------------------------------
E:---------------------------------------------------------------
let last note ring




Ваше мнение



Капча