Intro
-------------------------------|
-------------------------------|
---------7-----7--8--9-9-0-0-7-|
---7--9------9-----------------|

Here is the intro, it sounds much better the the other tabs on here

-------------------------------|
-------------------------------|
---------7-----7--8--9-9-0-0-7-|
---7--9------9-----------------|
-------------------------------|
-------------------------------|
---------7-----7--8--9-9-0-0-7-|
---7--9------9-----------------|
-------------------------------|
-------------------------------|
---------7-----7--8--9-9-0-0-7-|
---7--9------9-----------------|




Ваше мнение



Капча