Great song off the bloodclot single.
INTRO
CHORUS X2
VERSE X2 palm muted
CHORUS X1S
SOLO X1
CHORUS X2
I see this tab in so many places but that intro and verse are always rong this tab is 99% correct.

E-----------------------------------------------------------------
B-----------------------------------------------------------------
G---2-h4-2-0-0-----2-h4-2-0-0---0---0-2-h4-2-0-0------------------
D---0----0-0-0-----0----0-0-0-2---2---0----0-0-0------------------
A-----------------------------------------------------------------
E-----------------------------------------------------------------CHORUS
E-----------------------------------------------------------------
B-----------------------------------------------------------------
G-55-44-22--------------------------------------------------------
D-55-44-22-44/55555555--------------------------------------------
A-33-22-00-44/55555555--------------------------------------------
E----------22/33333333--------------------------------------------VRESE
E-------------------------------------------------------------------
B-------------------------------------------------------------------
G------------5-(555555)-----------------------3-(555555)-----------
D-5-(555555)-5-(555555)-5-(555555)-5-(555555)-3-(555555)-5-(555555)-
A-5-(555555)-3-(333333)-5-(555555)-5-(555555)-5-(555555)-5-(555555)-
E-3-(333333)------PM----3-(333333)-3-(333333)------PM----3-(333333)-
PM PM PM PM
E-----------------------------------------------------------------
B-----------------------------------------------------------------
G-4-------4-------------------------------------------------------
D-4-------4-------------------------------------------------------
A-2-------2-------------------------------------------------------
E-----------------------------------------------------------------
SOLO played with an extra overdrive by tim
E-----------------------------------------------------------------
B-----------------------------------------------------------------
G------------------------------------------7-4--------------7-4---
D-9-7-5-7-5---5-h7-7-5--5-7-9-7-5---5--5-7-----7-5----5-5-7-----7-
A-----------7---------------------7-----------------7-------------
E-----------------------------------------------------------------
E-----------------------------------------------------------------
B-----------------------------------------------------------------
G-4---------------------------------------------------------------
D-----------------------------------------------------------------
A-----------------------------------------------------------------
E-----------------------------------------------------------------
XXX Useless Insight XXX




Ваше мнение



Капча