DOPE SICK GIRL - Rancid

By: Ryan Anderson

Please send comments to [email protected]

h = hammer-on
/ - bend

Bass Intro
e|---------------------------------------------------------------------------|
B|---------------------------------------------------------------------------|
G|---------------------------------------------------------------------------|
D|------7-----7--10-9-7---------------7-9-10-9-7-----------------------------|
A|--7h9---7h9-------------(3x)-then------------------------------------------|
E|---------------------------------------------------------------------------|

Guitar During Bass Intro
e|---/5---/5---/5--5-5-5-----------------------------------------------------|
B|-----------------5-5-5-----------------------------------------------------|
G|---------------------------------------------------------------------------|
D|---------------------------------------------------------------------------|
A|---------------------------------------------------------------------------|
E|---------------------------------------------------------------------------|

Guitar Intro
e|------5-----5--8-7-5--------------5-7-8-7-5--------------------------------|
B|--5h7---5h7------------(3x)-then-------------------------------------------|
G|---------------------------------------------------------------------------|
D|---------------------------------------------------------------------------|
A|---------------------------------------------------------------------------|
E|---------------------------------------------------------------------------|

Verse (same for palm muted part too -- when they say dope sick girl, thats the
chord C5)
C5 G5 F5 G5
e|---------------------------------------------------------------------------|
B|---------------------------------------------------------------------------|
G|--5------------------------------------------------------------------------|
D|--5-----5----3----5--------------------------------------------------------|
A|--3-----5----3----5--------------------------------------------------------|
E|--------3----1----3--------------------------------------------------------|

Ending Solo
e|--7-8-8-8-4-5-5-5--7-8-8-8-4-5-5--7--7--7--7--7-7-7------------------------|
B|--7-8-8-8-4-5-5-5--7-8-8-8-4-5-5--7--7--7--7--7-7-7------------------------|
G|---------------------------------------------------------------------------|
D|---------------------------------------------------------------------------|
A|---------------------------------------------------------------------------|
E|---------------------------------------------------------------------------|

Track 17 off of Rancid's Album Let's Go
Tabbed : July 1st, 2001




Ваше мнение



Капча