Title: Don't Care Nothin'
Artist: Rancid
2/12/98

This is a damn fine song. It's not totally correct but pretty close to it.

Intro
G---17---12---14---10-------------------------------------------------------------------------------------------------------
D-------------------------------------------------------------------------------------------------------------------------------
A--------------------------1-2-3-----3---------------1-2-3----3----------------1-2-3----3------------1-2-3--------------
E----------------------------------------3--5--1------------------3--5--1--------------------3--5--1----------1-1-1-1-1-1

On the 2nd repeat of this line play fill 1 at the end.
Verse Fill 1
G---------------------------0-2-3-5-5-5-2-3-0--------*------------4-5-7-7-7-5-2-3-0-----------------------------------
D------------0-2-3-3-3-5-----------------------5-5-5-*---(5-5-5)----------------------------------------------------------
A---3-3-3-5---------------------------------------------*---------------------------------------------------------------------
E---------------------------------------------------------*---------------------------------------------------------------------

On the 2nd repeat of this line play Fill 2
Verse II (P.M) Fill 2
G---------------------------------------------------------*----------------------------4-5-7-7-7-5-2-3-0-------------------
D-------------3-3-3-3---------------5-5-5-5-----------*-------(5-5)-----2-3-5-7------------------------------------------
A---3-3-3-3-----------3-3-3-3-------------------------*---------------------------------------------------------------------
E---------------------------------------------------------*---------------------------------------------------------------------

2nd part of chorus is Fill 3
Chorus Fill 3 (Also repeat at end)
G---------------------------------------------------------*--------------------------------------------------------------------
D--------0-5-0-3-3-3-5-3-0---------------------------*--------0-3-0-5-5-5-5-3-0----------------------------------------
A---3-3--------------------------------------------------*---3-3--------------------------------------------------------------
E---------------------------------------------------------*---------------------------------------------------------------------

Variation of Intro
G---17---12---14---10/17---12---14---10---------------------------------------------------------------------------------
D-------------------------------------------------------------------------------------------------------------------------------
A-------------------------------------------------------------------------------------------------------------------------------
E-------------------------------------------------------------------------------------------------------------------------------

Ends
G---------------------------------------------
D---------------------------------------------
A---------------------------------------------
E---3-----------------------------------------

Tabbed By Old Man (Hollandaise)

[email protected]




Ваше мнение



Капча