Song: DON GIOVANNI
Band: RANCID
Album: RANCID 2000
Tabbed By: DAN HAVOC, BASSIST FOR THE NEUTRALS
INTRO
G:--------------------------------------------------------
D:---------------------------------------------------------
A:---5~~~4~~~2~~~1~~~0----0----0----0--------
E:-------------------------------------3----3----3----3-----
VERSE
G:--------------------------
D:---------------------------
A:---5-5-4>--2-2-1>----
E:---------------------------
CHORUS
G:-------------------------
D:--------------------------
A:--------------------------
E:---5-5-3>--5-5-3>----
THATS IT! REALLY EASY




Ваше мнение



Капча