Sorry I don't know the words but my friend taught me the tabs. This is really for bass but it works for any guitar.
e--------------------------------------------------------------------------
b--------------------------------------------------------------------------
g----11-14-11-------------------------------------------------------------- x2
d--12--------14-12--11-14-11------------------------------12-12-12-12-12-12
a-----------------12--------14-12-13-13-13-13-10-10-10-10------------------
e--------------------------------------------------------------------------
(this is the intro.)
e-----------
b-----------
g----------- (do this until the song is over)
d---12-7-8-5
a-----------
e-----------
My email adress is [email protected] ask for Mike.




Ваше мнение



Капча