Band:Rancid
Song:Dead bodies
CD:Rancid 2000
Tab by:[email protected]
Intro
e:-----------------------------------------------------------------
b:-----------------------------------------------------------------
g:----11--14--11---------------------------------------------------
d:-12------------14--12----11--14--11------------------------12(8x) 2x
a:----------------------12------------14--12--13(4x)--10(4x)-------
E:-----------------------------------------------------------------
Verse
e:-----------------------------------------------------------------
b:-----------------------------------------------------------------
g:-8---------------------------------------------------------------
d:-8--8-8--9-9--6-6------------------------------------------------ 7x
a:-6--8-8--9-9--6-6------------------------------------------------
E:----6-6--7-7--4-4------------------------------------------------
Chorus
e:-----------------------------------------------------------------
b:-----------------------------------------------------------------
g:-8----------------------9----10----------------------------------
d:-8------8-----9---6-----9----10---------------------------------- 2x
a:-6------8-----9---6-----7----8-----------------------------------
E:--------6-----7---4----------------------------------------------
Slow part
e:--------------
b:--------------
g:--5------5----
d:--------------
a:--3------3----
E:--------------




Ваше мнение



Капча