Song David Courtney
Band Rancid
Tabber Eaiddhi
E-mail [email protected]
Tuning Standard
I can't figure out the solo part complete. If u get it mail me ok.
Please listen to the song and play the vamping.
U can vamp it up & down.
|------------------------------------------|
|------------------------------------------|
|-7777------7777-----------7777-9999-------|
|-7777-7777-7777-5555-5555-7777-9999-7777--| x 2
|-5555-7777-5555-5555-5555-5555-7777-7777--|
|------5555------3333-3333-----------5555--|
|-------------------------------------------------------------------------|
|-------------------------------------------------------------------------|
|-7-777777----------7-777777-------------------7-777777-9-999999----------|
|-7-777777-7-777777-7-777777-5-555555-5-555555-7-777777-9-999999-5-555555-|
|-5-555555-7-777777-5-555555-5-555555-5-555555-5-555555-7-777777-5-555555-|
|----------5-555555----------3-333333-3-333333-------------------5-555555-|
P.M ...... ...... ...... ...... ...... ...... ...... ......
|-------------------------------------------|
|-------------------------------------------|
|------------4444---------------------------|
|-5555-------4444- x16 -5555-------4444-----|
|-5555- x16 -2222-------5555- x16 -4444-x16-|
|-3333------------------3333-------2222-----|
|------------------------------------------|
|------------------------------------------|
|-7777------7777-----------7777-9999-------|
|-7777-7777-7777-5555-5555-7777-9999-7777--| x 2
|-5555-7777-5555-5555-5555-5555-7777-7777--|
|------5555------3333-3333-----------5555--|
|-------------------------------------------------------------------------|
|-------------------------------------------------------------------------|
|-7-777777----------7-777777-------------------7-777777-9-999999----------|
|-7-777777-7-777777-7-777777-5-555555-5-555555-7-777777-9-999999-5-555555-|
|-5-555555-7-777777-5-555555-5-555555-5-555555-5-555555-7-777777-5-555555-|
|----------5-555555----------3-333333-3-333333-------------------5-555555-|
P.M ...... ...... ...... ...... ...... ...... ...... ......
|-------------------------------------------|
|-------------------------------------------|
|------------4444---------------------------|
|-5555-------4444- x16 -5555-------4444-----|
|-5555- x16 -2222-------5555- x16 -4444-x16-|
|-3333------------------3333-------2222-----|
|------------------------------------------|
|------------------------------------------|
|-7777------7777-----------7777-9999-------|
|-7777-7777-7777-5555-5555-7777-9999-7777--| x 2
|-5555-7777-5555-5555-5555-5555-7777-7777--|
|------5555------3333-3333-----------5555--|
(solo)
|-------------------------------------------------------------------------|
|-------------------------------------------------------------------------|
|-7-777777----------7-777777-------------------7-777777-9-999999----------|
|-7-777777-7-777777-7-777777-5-555555-5-555555-7-777777-9-999999-5-555555-|
|-5-555555-7-777777-5-555555-5-555555-5-555555-5-555555-7-777777-5-555555-|
|----------5-555555----------3-333333-3-333333-------------------5-555555-|
P.M ...... ...... ...... ...... ...... ...... ...... ......
|------------------------------| |-------------------|
|------------------------------| |-------------------|
|------------44444444-22222222-| |-------------------|
|---5555-----44444444-44444444-| x 3 |-5555-----4444-----|
|---5555-x16-22222222-22222222-| |-5555-x16-4444-x16-|
|---3333-----------------------| |-3333-----2222-----|
P.M..... ....
|----------------------------------|
|----------------------------------|
|-7-------7-----------7---9--------|
|-7---7---7---5---5---7---9---7----|
|-5---7---5---5---5---5---7---7----|
|-----5-------3---3-----------5----|
|------------------------------------------|---|
|------------------------------------------|---|
|-7777------7777-----------7777-9999-------|-7-|
|-7777-7777-7777-5555-5555-7777-9999-7777--|-7-|
|-5555-7777-5555-5555-5555-5555-7777-7777--|-5-|
|------5555------3333-3333-----------5555--|---|
Fine.




Ваше мнение



Капча