Rancid
Crane Fist
Life Won't Wait

Main Riff
G------------------------3-----
D------2-4--4-2------2-4---4-2-
A-4--4----------4--4-----------
E------------------------------

Other Part
G-----------------------------
D-----------------------------
A-6-6-66666--5-5-55555--------
E-----------------------------

End on This
G---
D---
A-4-
E---




Ваше мнение



Капча