Every single note in the whole song is right down there. ATLEAST 99% accurate.
very nice tab. questions, comments, insults everything goes to [email protected]
e|------------------------|
B|------------------------|palm muted
G|----5>>-----------------|
D|----5>>------------3>>--|
A|----3>>----------0-3>>--|
E|-----------------0-1>>--|
California sun has sunk
e|-----------------------------------------|
B|-----------------------------------------|palm muted
G|--------------------------5>>------------|
D|-------7>>-----5>>--------5>>------------|
A|-------7>>-----5>>--------3>>------------|
E|-------5>>-----3>>-----------------------|
Behind Anaheim hills here comes tonight
e|-------------------|
B|-------------------|palm muted
G|------5>>----------|
D|------5>>-----3>>--|
A|------3>>---0-3>>--|
E|------------0-1>>--|
I was high on junk
e|------------------------------------------------|
B|------------------------------------------------|palm muted
G|---------------------------------5>>------------|
D|--------7>>-----------5>>--------5>>------------|
A|--------7>>-----------5>>--------3>>------------|
E|--------5>>-----------3>>-----------------------|
And the warm winds of Santa Anna feel all right
e|-------------------------------------------------------|
B|-------------------------------------------------------|palm muted
G|------------5-------5----------------------------------|
D|------------5-------5-----------3----------------3-----|
A|------------3-------3-----------3----------------3-----|
E|--------------------------------1----------------1-----|
Will every crimmin' hood make a bargain with the world
e|--------------------------------------------------|
B|--------------------------------------------------|palm muted
G|---------------------------------5-----------5----|
D|3---------3----------------------5-----------5----|
A|3---------3----------------------3-----------3----|
E|1---------1---------------------------------------|
Seats are successive when you're shot to the curb
e|------------------------------------------------------|
B|------------------------------------------------------|palm muted
G|--5---------------5-----------------------------------|
D|--5---------------5-------------3--------------3------|
A|--5---------------3-------------3--------------3------|
E|--------------------------------1--------------1------|
I spend my day in blindness, at night I get my vision
e|-----------------------------------------|
B|-----------------------------------------|palm muted
G|-----------------------5------5----------|
D|3-----------3----------5------5----------|
A|3-----------3----------3------3----------|
E|1-----------1----------------------------|
Dodgy, cause there are no one indecision
e|---------------------------------------------------------------|
B|---------------------------------------------------------------|
G|---------------------------------------------------------------|
D|---------------------------------------1--2--3--4-3-2----------|
A|--------------0--1--3--3-1-0---0-0-3--3------------------------|
E|-----------1---------------------------------------------------|
Cause it's wild When it's
e|---------------------------------------------------------------|
B|---------------------------------------------------------------|
G|--2--1--0------------------0-----------------------------------|
D|-----------4--3--2--1--0------4--3--2--1--0--------------------|
A|---------------------------------------------4--3--------------|
E|---------------------------------------------------------------|
Wild wild wild wild
e|------------------------|
B|------------------------|palm muted
G|----5>>-----------------|
D|----5>>------------3>>--|
A|----3>>----------0-3>>--|
E|-----------------0-1>>--|
California sun has sunk
e|-----------------------------------------|
B|-----------------------------------------|palm muted
G|--------------------------5>>------------|
D|-------7>>-----5>>--------5>>------------|
A|-------7>>-----5>>--------3>>------------|
E|-------5>>-----3>>-----------------------|
Behind Anaheim hills here comes tonight
e|-------------------|
B|-------------------|palm muted
G|------5>>----------|
D|------5>>-----3>>--|
A|------3>>---0-3>>--|
E|------------0-1>>--|
I was high on junk
e|------------------------------------------------|
B|------------------------------------------------|palm muted
G|---------------------------------5>>------------|
D|--------7>>-----------5>>--------5>>------------|
A|--------7>>-----------5>>--------3>>------------|
E|--------5>>-----------3>>-----------------------|
And the warm winds of Santa Anna feel all right
e|------------------------------------|
B|------------------------------------|
G|5--------5--------------------------|
D|5--------5--------3-------3---------|
A|3--------3--------3-------3---------|
E|------------------1-------1---------|
I get destructive outside obedience
e|------------------------------------------------|
B|------------------------------------------------|
G|---------------------------------5--------5-----|
D|-----3------------3--------------5--------5-----|
A|-----3------------3--------------3--------3-----|
E|-----1------------1-----------------------------|
I am no longer respected in this new transition
e|-----------------------------------------|
B|-----------------------------------------|
G|--5--------5-----------------------------|
D|--5--------5----------3---------3--------|
A|--3--------3----------3---------3--------|
E|----------------------1---------1--------|
I put into effect, my long time standard
e|--------------------------------------|
B|--------------------------------------|
G|---------------------5--------5-------|
D|--3--------3---------5--------5-------|
A|--3--------3---------3--------3-------|
E|--1--------1--------------------------|
Disastrous living, disastrous living!
e|---------------------------------------------------------------|
B|---------------------------------------------------------------|
G|---------------------------------------------------------------|
D|---------------------------------------1--2--3--4-3-2----------|
A|--------------0--1--3--3-1-0---0-0-3--3------------------------|
E|-----------1---------------------------------------------------|
Cause it's wild When it's
e|---------------------------------------------------------------|
B|---------------------------------------------------------------|
G|--2--1--0------------------0-----------------------------------|
D|-----------4--3--2--1--0------4--3--2--1--0--------------------|
A|---------------------------------------------4--3--------------|
E|---------------------------------------------------------------|
Wild wild wild wild
e|------------------------|
B|------------------------|palm muted
G|----5>>-----------------|
D|----5>>------------3>>--|
A|----3>>----------0-3>>--|
E|-----------------0-1>>--|
California sun has sunk
e|-----------------------------------------|
B|-----------------------------------------|palm muted
G|--------------------------5>>------------|
D|-------7>>-----5>>--------5>>------------|
A|-------7>>-----5>>--------3>>------------|
E|-------5>>-----3>>-----------------------|
Behind Anaheim hills here comes tonight
e|-------------------|
B|-------------------|palm muted
G|------5>>----------|
D|------5>>-----3>>--|
A|------3>>---0-3>>--|
E|------------0-1>>--|
I was high on junk
e|------------------------------------------------|
B|------------------------------------------------|palm muted
G|---------------------------------5>>------------|
D|--------7>>-----------5>>--------5>>------------|
A|--------7>>-----------5>>--------3>>------------|
E|--------5>>-----------3>>-----------------------|
And the warm winds of Santa Anna feel all right
e|-----------------------------------------------------|
B|-----------------------------------------------------|
G|-----------------------------------------------------|
D|-------------------------------------1-1-1-1-0-1-0---|
A|-------0h3-3-0---0-------0---0---------------------3-|
E|-3-3-3-------------3-3-3---3---3---3-----------------|
e|-----------------|
B|-----------------|
G|-----------------|
D|-------------0---|
A|-3-------0-3---3-|
E|---3-3-3---------|
e|---------------------------------------------------------------|
B|---------------------------------------------------------------|
G|---------------------------------------------------------------|
D|---------------------------------------1--2--3--4-3-2----------|
A|--------------0--1--3--3-1-0---0-0-3--3------------------------|
E|-----------1---------------------------------------------------|
Cause it's wild When it's
e|---------------------------------------------------------------|
B|---------------------------------------------------------------|
G|--2--1--0------------------0-----------------------------------|
D|-----------4--3--2--1--0------4--3--2--1--0--------------------|
A|---------------------------------------------4--3--------------|
E|---------------------------------------------------------------|
Wild wild wild wild
e|------------------------|
B|------------------------|
G|----5~------------------|
D|----5~-------------3~---|
A|----3~-----------0-3~---|
E|-----------------0-1~---|
California sun has sunk
e|-----------------------------------------|
B|-----------------------------------------|
G|--------------------------5~-------------|
D|-------7~------5~---------5~-------------|
A|-------7~------5~---------3~-------------|
E|-------5~------3~------------------------|
Behind Anaheim hills here comes tonight
e|-------------------|
B|-------------------|
G|------5~-----------|
D|------5~------3~---|
A|------3~----0-3~---|
E|------------0-1~---|
I was high on junk
e|------------------------------------------------|
B|------------------------------------------------|
G|---------------------------------5~-------------|
D|--------7~-----------5~----------5~-------------|
A|--------7~-----------5~----------3~-------------|
E|--------5~-----------3~-------------------------|
And the warm winds of Santa Anna feel all right
e|------------------------|
B|------------------------|palm muted
G|----5>>-----------------|
D|----5>>------------3>>--|
A|----3>>----------0-3>>--|
E|-----------------0-1>>--|
California sun has sunk
e|-----------------------------------------|
B|-----------------------------------------|palm muted
G|--------------------------5>>------------|
D|-------7>>-----5>>--------5>>------------|
A|-------7>>-----5>>--------3>>------------|
E|-------5>>-----3>>-----------------------|
Behind Anaheim hills here comes tonight
e|-------------------|
B|-------------------|palm muted
G|------5>>----------|
D|------5>>-----3>>--|
A|------3>>---0-3>>--|
E|------------0-1>>--|
I was high on junk
e|------------------------------------------------|
B|------------------------------------------------|palm muted
G|---------------------------------5>>------------|
D|--------7>>-----------5>>--------5>>------------|
A|--------7>>-----------5>>--------3>>------------|
E|--------5>>-----------3>>-----------------------|
And the warm winds of Santa Anna feel all right
Feel all right!




Ваше мнение



Капча