Artist: Rancid
Song: Born Frustrated
Tabber: matt_tmse
Email address: [email protected]

Intro
G------------3-6------1-1-4-4-1-1---
D-----1-4--4------2-2---------------
A---2-------------------------------
E-----------------------------------

Verse
G-----------------------------1-4---1-4---1-4---1-4--
D---------------------------2-----2-----2-----2------
A------6-----6-----6-----6---------------------------
E--4-7---4-7---4-7---4-7-----------------------------

G-----------------------------1-4---1-4-----3-3-6-6-3--
D---------------------------2-----2-----4-4------------ X2
A------6-----6-----6-----6-----------------------------
E--4-7---4-7---4-7---4-7-------------------------------

Chorus
G------------3-6------1-1-4-4-1-1---
D-----1-4--4------2-2---------------
A---2-------------------------------
E-----------------------------------

Bridge
G------4-2---2-4-2---2----------------2-4-6-4-2------
D----------4-------4---4-----4-4-2-4-----------4-2---
A--2-2-----------------------------------------------
E----------------------------------------------------

G-----4-2---2------9-7-9-7-9-7-9-7-9-11-9-7------------------
D-2-2-----4---4-----------------------------7-9-7-9-7--------
A-----------------------------------------------------9-7-5--
E-------------------------------------------------------------

G------4-2---2-4-2---2----------------2-4-6-4-2------
D----------4-------4---4-----4-4-2-4-----------4-2---
A--2-2-----------------------------------------------
E----------------------------------------------------

G------4-----4-----4-----4-----4----4-4-4-4-4--------------------
D-2-2----2-2---2-2---2-2---2-2---2--2-2-2-2-2----------------9-7-
A----------------------------------------------2---2-----2-2-----
E----------------------------------------------------2-0---------

Ending
G--------------------------------------------------------------
D--------------------------------------------------------------
A--2-9-7-7-7-7-7-7-7-7-7-7-7-2---------------------------------
E--------------------------------------------------------------




Ваше мнение



Капча