-------------------------------------------------------------------------------
BLACKLISTED - Rancid
-------------------------------------------------------------------------------

**when you strum, listen to the song for timing

/ = slide down
> = strum

intro solo
G:---------------3---------------3-------3-5-8-5-3-----------
D:-----3-5-3-------5-3-5---5-3-5---5-3-5-----------5-3-5-3---
A:---5-------5---------------------------------------------3-
E:-6-----------6---------------------------------------------

G:---------------3-------3333-5-6-7-5-3-2---
D:-----3-5-3-------5-3-5------------------3-
A:---5-------5------------------------------
E:-6-----------6----------------------------

riff 1
G:--------------------
D:----3>-5>-----3>-5>-
A:-3/--------3/-------
E:--------------------

riff 2
G:----------------------
D:----3>-5>----3>-5>----
A:-3>-------3>-------3/-
E:----------------------




Ваше мнение



Капча