Great song of indestructible haven't seen a tab 4 this n e where else.

Verse/Intro

e---------------------------------------
B---------------------------------------
G----------------------------9-9-9-9-8-8
D9-9-9-9-9-9-9-9--9-9-9-9-9--7-7-7-7-6-6
A7-7-7-7-7-7-7-7--6-6-6-6-6-------------
E---------------------------------------
. . . . . . . . . . . . . . . . . .

Chorous

B, A, E X2
A, E X2
End On B

Bridge X2

e-----------------------
B--------9--10101010-9-9
G9---9---8---9-9-9-9-8-8
D9---9---6---7-7-7-7-6-6
A7---7------------------
E-----------------------

Verse

Chorous

Bridge

Break Pm...

C#, B, E

Solo

e-------------------------------------------------------------------
B-------------------------------------------------------------------
G-6b8-4-6p4-6b7-6b7-6b7p4-6b8-4b6-6p4-6b-6b-6b-6p4-6b7-6b7-6p4-6-6b8
D-------------------------------------------------------------------
A-------------------------------------------------------------------
E-------------------------------------------------------------------

Chords Under Solo X2

G#, B, E B
G#, E, B

Verse

Chourus

Bridge

Verse Fades Out

Theres the song.

XXX Useless Insight XXX




Ваше мнение



Капча